Nenjukkul Peidhidum Maamazhai Guitar Tabs – Vaaranam Aayiram

Post Reply
User avatar
mahi
Moderator
Moderator
Posts: 749
Joined: Mon Jul 23, 2012 2:39 pm

Nenjukkul Peidhidum Maamazhai Guitar Tabs – Vaaranam Aayiram

Post by mahi » Sun Apr 14, 2013 12:29 pm

B-----------------------------2------------------------------------ B

G-----2--2---4---4--4---2--4-----2--------2---2---2--4---1--------- G

D-----------------------------------4--4--------------------4--2--- D

Sattendru maruthu vanilai penne un mel pizhai



B-----------------------------------------------2------- B

G------------1---1--1-2----1-24---1--1---2--24-----4---- G

D-----2--2---------------4------------------------------ D



Nillamal veesidum peralai nenjukkul neenthidum tharahai

B-----------------------------2------------------------------------ B

G-----2--2---4---4--4---2--4-----2--------2---2---2--4---1--------- G

D-----------------------------------4--4--------------------4--2--- D



Ponvannam soodiya karighai penne nee kanchanai



B------------------------------------------------------- B

G------------1---1--1-2----1-24---1--1---2---------4---- G

D-----2--2---------------4-------------------4--2------- D



O Shanthi Shanthi O Shanthi en uyirai uyirai nee yendhi



B---------3---3---2---------5---5--------33--3--22---------2------ B

G------4--------------2--4-----------4--------------2--2------4--- G

Yen sendrai sendrai enai thandi ini neethan endhan andhadhi



B---------3---3---2-------------5---5-------3--3----2---------2------ B

G------4--------------2----44-----------46-------------2--24-----4--- G



Yedho ondru ennai eerkka mookkin nuni marmam serkka



G------2--2--1--2-----2--1------2--2---1--2-----2--1------- G

D------------------4-------4-2---------------4--------4-2-- D

Kallathanam yedhum illa punnagaiyo bogan villa



G-----2--2--1—2---------2--1-------2--2-1--2-----2--1------- G

D--------------------4-------4-2---------------4-------4-2-- D



Nee nindra idamendral vilai yeri pogatho



B----------2------22--2--2------2--5-2----------- B

G-----2-------4--------------4----------4-4--4--- G

Nee sellum vazhiyellam panikkatti Ahatho

B----------2------22--2--2------2--5-2----------- B

G-----2-------4--------------4----------4-4--4--- G

Ennodu va veedu varaikkum



G-----4-4--2--42-----2---4--2---2-- G

D-----------------4---------------- D

En veettai par ennai pidikkum

G-----4-4--2--42-----2---4--2---2-- G

D-----------------4---------------- D

Post Reply

Who is online

Users browsing this forum: No registered users and 2 guests