Page 1 of 1

Doorie Guitar Tabs- Atif Aslam

Posted: Fri Dec 20, 2013 10:59 pm
by mahi
Guitar Tabs:
Basic Chorus:
E------------------------------------------------------
A------------------------------------------------7h9p7-
D---------------767--------767-----------76--767-------
G-6--6-----6--64---6h4p6-64---6h4p6-44676--64----------
B--5--5h75--5------------------------------------------
e------------------------------------------------------

Basic Verse:
E---------------------------------------
A---------------------------------------
D---------h7-77---77477-------7-77------
G-6646-6p4-----64------64h6-64----64----
B-----------------------------------5-7-
e--------------------------------------- X2