Je Liya Guitar Tabs- Akash

Post Reply
User avatar
mahi
Moderator
Moderator
Posts: 749
Joined: Mon Jul 23, 2012 2:39 pm

Je Liya Guitar Tabs- Akash

Post by mahi » Fri Dec 20, 2013 10:58 pm

Intro is..

e-9s12 12s9 9s7-7s5-5s7-7s9--

a-9s12 12s9 9s7-7s5-5s7-7s9--

d-9s12 12s9 9s7-7s5-5s7-7s9-- 4x

g-9s12 12s9 9s7-7s5-5s7-7s9--

b-----------------------------

e-----------------------------

and rest the all song is played by the chords..

e--7---5---3---5---

a--7---5---3---5---

d--9---7---5---7---

g--9---7---5---7---

b--8---6---4---6---

e--7---5---3---5---

Post Reply

Who is online

Users browsing this forum: No registered users and 1 guest