Hona Tha Pyaar Guitar Tabs- Atif Aslam

Post Reply
User avatar
mahi
Moderator
Moderator
Posts: 749
Joined: Mon Jul 23, 2012 2:39 pm

Hona Tha Pyaar Guitar Tabs- Atif Aslam

Post by mahi » Fri Dec 20, 2013 10:57 pm

Tabs of Hona Tha Pyar by Atif Aslam from the movie BOL

Hona Tha Pyar Hoa Mere Yaar....


e|-------------5-4-4-4------4-5-----------------------------|
B|----7--5---------------7---------------------------------|Start From Here...

Hona Tha Pyar Hoa Mere Yaar....

e|-------------5-4-4-4------4-5-----------------------------|
B|----7--5----------------7---------------------------------|Start From Here...

Aey Nazar Chahre Hazaaar ....

e|----11-12-7-4-4-4-7-5-4---------------------------|Start from here ..
B|---------------------------7-----------------------|

Hona Tha Pyar Hoa Mere Yaar....

e|-----------5-4-4-4---4-5-----------------------------|
B|----7--5-----------7---------------------------------|Start From Here...

SOLO:

e|--------------------------------------------------|
B|----------------4-7---------------------------------|
G|---------------------6-4-6-4-2-2-6-4---------------------|
D|----7--4-7-6------------------------------------------| Start From Here
A|--------------------------------------------------|
E|--------------------------------------------------|

Mere Dil k Shher Mein ... Ghar mera Ho Gya ho gya ...


e|---4-2-4-2-4---------4-2-4---------5-4-2-------------------|Start From Here...
B|--------------5-4-7---------5-4-2--------------------|


Sapna Dekha jo Tum ne woh mera ho gya ....ho gya ...


e|---4-2-4-2-4---------4-2-4---------5-4-2-------------------|Start From Here...
B|--------------5-4-7---------5-4-2--------------------|

Doobe To Youn jese hawaa ...

e|----11-12-7-4-4-4-7-5-4---------------------------|Start from here ..
B|---------------------------7-----------------------|

Hona Tha Pyar Hoa Mere Yaar....

e|-----------5-4-4-4---4-5-----------------------------|
B|----7--5-----------7---------------------------------|Start From Here...

Hona Tha Pyar Hoa Mere Yaar....

e|-----------5-4-4-4---4-5-----------------------------|
B|----7--5-----------7---------------------------------|Start From Here...

2nd Solo:

e|--------9-7-9-7-9--11--14-12-9-7-5-4-4-7-5-4-5-7-9-11-12-14-14--------|
B|----5------------------------------------------------------------------------| Start

Post Reply

Who is online

Users browsing this forum: No registered users and 1 guest