Ajnabi Guitar Tabs- Amir Saleem

Post Reply
User avatar
mahi
Moderator
Moderator
Posts: 749
Joined: Mon Jul 23, 2012 2:39 pm

Ajnabi Guitar Tabs- Amir Saleem

Post by mahi » Fri Dec 20, 2013 10:47 pm

Song Name: Ajnabi
Singer:Amir Saleem


E-6-4-4-6-4---------------------
B-------------7-6---2-4/7-6-4--
G------------------3--------------

Ma Tanha Ho:

E-6-6-7-6-4 pause 4-4-6-4-
B-------------------------------7 pause

again repeat but last note change (i.e)

E-6-6-7-6-4 pause 4-4-6-4-2 pause

Mujha Tun Q Sataty:

E-1-1-1---------------------
B------------2-4/7-6-4-----
G---------3------------------

Tumhy Dhekha Nai:

E-6-6.-7-11 pause 11-11- 11-13-11-9-9-9-7-4-4-5/7-7-5-5
(play it 2 times)

Meri Bhahoy Ma Aajoa:

E-6-7-6-4-2-1 pause 1-4/6--------
B-------------------------------7-6-4-

Post Reply

Who is online

Users browsing this forum: No registered users and 1 guest