Dil Haray Guitar Tabs- Jal

Post Reply
User avatar
mahi
Moderator
Moderator
Posts: 749
Joined: Mon Jul 23, 2012 2:39 pm

Dil Haray Guitar Tabs- Jal

Post by mahi » Fri Dec 20, 2013 10:39 pm

Song Name:Dil Haray
Film:Boondh
Singer:Jal The Band



Intro:
Repeat 2 Times:


e|-----------3----2----2----5---3----------------------|
B|-------3----------------------------------------------|
G|-------0----------------------------------------------|
D|-------------------------------------------------------|
A|-------------------------------------------------------|
E|-------3-----------------------------------------------| Start ....


Second Part of the Intro:


e|----------7----5----5----7---8-----7---5---7----5---------|
B|--------7---------------------------7----------------------|
G|----------------------------------------------------------|
D|---------------------------------------------------------|
A|------7----------------------------7-------------------|
E|-------------------------------------------------------|


Song Begins ....


Ankhon se Jab b hon tere Ankhein Judaa


e|--------7-----5----5----7----7----7---8---7---5---0---2---3-----|
B|--------------------------------------------------|


Maan se Jab b ho tera Man Khafaa aaa ...


e|--------7-----5---5----7----7----7---8---7---5---0---2---3-----|
B|--------------------------------------------------|


Too jee Pukare Pukare Tujhee ...

e|-----7--7--7--7---12---10---14---14---12---15--------------------|
B|----------------------------------------------------------------|

Dil Haray Pukare Tujhe ...Man Ja re Mana le Mujhe ...

e|------7---8---7---5---5---7----7--10--8---7--8---7---5----3----22---3---5---7-|
B|--------------------------------------------------|

Sun Pyare laga le gale Kho ja re Tu gale Sang re ...

e|------7---8---7---5---5---7----7--10--8---7--8---7---5----3----22---3---5---7---3|
B|--------------------------------------------------|


Hoooooo hooooo ohooo ...
Repeat 2 Time ...

e|---10-----15---14---17---15---14--12---14---12--19-----------|
B|--------------------------------------------------|


Solo Begins:

e|--------------------------------------------------|
B|--------------------------------------------------|
G|--7---5---4----4---7---5-4-5-4-5-4----4---------6--5-4-----4-----|
D|-------------7--------------------------7----7--5-----------7-----7---5|
A|--------------------------------------------------|
E|--------------------------------------------------|


2nd part:


e|-----------------------------------------------------------------------------|
B|---8--7---8---10-12--13--12--10--13-13-12-12-10-8-8-8-10----|
G|--------------------------------------------------|
D|--------------------------------------------------|
A|--------------------------------------------------|


Now 3 Part:


e|-10-10-10-8-8-7----7-8-7-------------------------------------|
B|-------------------10-------10-8-7-5-3--1-3-3---------------|
G|--------------------------------------------------|


Now 4th Part:


e|----------------------5-7-8-7-5------------------------|
B|------------------5-7------------8-7-5-----------------|
G|---5-4-5-4-5-4------------------------7-5-4-5--------|
D|--------------------------------------------------|
A|--------------------------------------------------|


Now 5 last part:


e|------------------10-8-6-7-5-3-----------------|
B|--------------------------------------------------|
G|--------------------------------------------------|
D|---------5-7-5-7--------------------------------|
A|--7-5-7------------------------------------------|
E|--------------------------------------------------|


NANa naa naa na naa ....


e|----3--3--7---5--5-7-3-------------------------| Repeat this 2 times
B|--------------------------------------------------|
G|--------------------------------------------------|


Dil haarayyy ...


e|------7---5----3----5---3-----------------------|
B|--------------------------------------------------|
G|--------------------------------------------------|

Post Reply

Who is online

Users browsing this forum: No registered users and 1 guest