Slow Down Guitar Tabs - Selena Gomez

Post Reply
User avatar
Lucifer
Posts: 4
Joined: Sun Feb 16, 2014 10:11 am

Slow Down Guitar Tabs - Selena Gomez

Post by Lucifer » Sun Feb 16, 2014 10:18 am

I need guitar tabs for Selena Gomez Slow Down.

User avatar
gladius
Senior Member
Senior Member
Posts: 52
Joined: Sun Jul 22, 2012 11:31 pm

Re: Guitar tabs

Post by gladius » Sun Feb 16, 2014 1:17 pm

Tuning: E A D G


Into/Verse 0:00

x5
G|------------------------------|----------------------|
D|------------------------------|----------------------|
A|-4--4--4--4--4--0--0-----0--2-|-4--4--4--4--4--rest--|
E|----------------------4-------|----------------------|

x3
G|------------------------------|-------------------------------|
D|------------------------------|-------------------------------|
A|-4--4--4--4--4--0--0-----0--2-|-4--4--4--4--4--0--0--0--rest--|
E|----------------------4-------|-------------------------------|


Pre Chorus 0:37


G|----------------------------------------------------------------------------------------------|
D|-------------------------2-(ring)-----------------------------------------2-(ring)------------|
A|-4-(ring)-----0-(ring)----------------2-(ring)----4-(ring)----0-(ring)----------------2-2-2-2-|
E|----------------------------------------------------------------------------------------------|


Chorus 0:52


G|-------------------------------------------------------------------|
D|-----------------------------------2--2--2--2--2-2-----------------|
A|-4--4--4--4--4-4--0--0--0--0--0-0------------------2--2--2--2--2-2-|
E|-------------------------------------------------------------------|

G|-----------------------------------------------------------|
D|-----------------------------------2--2--2--2--2-2---------|
A|-4--4--4--4--4-4--0--0--0--0--0-0--------------------rest--|
E|-----------------------------------------------------------|


Verse 1:07

x3
G|------------------------------|----------------------|
D|------------------------------|----------------------|
A|-4--4--4--4--4--0--0-----0--2-|-4--4--4--4--4--rest--|
E|----------------------4-------|----------------------|

x3
G|------------------------------|-------------------------------|
D|------------------------------|-------------------------------|
A|-4--4--4--4--4--0--0-----0--2-|-4--4--4--4--4--0--0--0--rest--|
E|----------------------4-------|-------------------------------|


Pre Chorus 1:38


G|----------------------------------------------------------------------------------------------|
D|-------------------------2-(ring)-----------------------------------------2-(ring)------------|
A|-4-(ring)-----0-(ring)----------------2-(ring)----4-(ring)----0-(ring)----------------2-2-2-2-|
E|----------------------------------------------------------------------------------------------|


Chorus 1:52


G|-------------------------------------------------------------------|
D|-----------------------------------2--2--2--2--2-2-----------------|
A|-4--4--4--4--4-4--0--0--0--0--0-0------------------2--2--2--2--2-2-|
E|-------------------------------------------------------------------|

G|-----------------------------------------------------------|
D|-----------------------------------2--2--2--2--2-2---------|
A|-4--4--4--4--4-4--0--0--0--0--0-0--------------------rest--|
E|-----------------------------------------------------------|


Bridge 2:07

x3
G|----------------------|----------------------|
D|----------------------|----------------------|
A|-4-(ring)----0-(ring)-|-4-(ring)----4-(ring)-|
E|----------------------|----------------------|

G|-----------------------------------------------------------------------------------------------------|
D|-------------------------2-(ring)-----------------------------------------2-(ring)-------------------|
A|-4-(ring)-----0-(ring)----------------2-(ring)----4-(ring)----0-(ring)---------------2-2-2-2-2-2-2-2-|
E|-----------------------------------------------------------------------------------------------------|
x2
G|-------------------------------------------------------------------|
D|-----------------------------------2--2--2--2--2-2-----------------|
A|-4--4--4--4--4-4--0--0--0--0--0-0------------------2--2--2--2--2-2-|
E|-------------------------------------------------------------------|


Chorus/Outro 2:52


G|-------------------------------------------------------------------|
D|-----------------------------------2--2--2--2--2-2-----------------|
A|-4--4--4--4--4-4--0--0--0--0--0-0------------------2--2--2--2--2-2-|
E|-------------------------------------------------------------------|

G|-----------------------------------------------------------|
D|-----------------------------------2--2--2--2--2-2---------|
A|-4--4--4--4--4-4--0--0--0--0--0-0--------------------rest--|
E|-----------------------------------------------------------|

G|-------------------------------------------------------------------|
D|-----------------------------------2--2--2--2--2-2-----------------|
A|-4--4--4--4--4-4--0--0--0--0--0-0------------------2--2--2--2--2-2-|
E|-------------------------------------------------------------------|

G|---------------------------------------------------------------------------|
D|-----------------------------------2--2--2--2--2-2-------------------------|
A|-4--4--4--4--4-4--0--0--0--0--0-0-------------------2--2--2--2--2-2--rest--|
E|---------------------------------------------------------------------------|



| / slide up
| \ slide down
| h hammer-on
| p pull-off
| ~ vibrato
| + harmonic
| x Mute note
==============================================================

Post Reply

Who is online

Users browsing this forum: No registered users and 1 guest