My heart is beating Guitar Tab

Post Reply
User avatar
mahi
Moderator
Moderator
Posts: 749
Joined: Mon Jul 23, 2012 2:39 pm

My heart is beating Guitar Tab

Post by mahi » Thu Dec 26, 2013 10:48 am

Starting music (guitar):
E------2-3-2-0-----2-0-------2-3-2-0------------------------------
B----3-----------3-----3---3-----------3-5-3----------------------
G--2-----------2---------2-----------2----------------------------
D-----------------------------------------------------------------
A-----------------------------------------------------------------
E-----------------------------------------------------------------
The above continues along with the flute part.

The flute part:
E-2-3-2-3-2-------------2-3-2-3-2---------------------------------
B-----------5-3-2-3-5-3-----------5-3-2-3-5-3---------------------
G-----------------------------------------------------------------
D-----------------------------------------------------------------
A-----------------------------------------------------------------
E-----------------------------------------------------------------

Song starts here:
E-----------------------------------------------------------------
B----3-5-5/7v-7---3-5-5/7v-7-7-7-8-5h7-5--------------------------
G--2------------2-------------------------------------------------
D-----------------------------------------------------------------
A-----------------------------------------------------------------
E-----------------------------------------------------------------

E-----------------------------------------------------------------
B--------------7-7-7-7\0--------------7-7-7-7\0-------------------
G--2-2-2-2h4-4------------2-2-2-2h4-4-----------------------------
D-----------------------------------------------------------------
A-----------------------------------------------------------------
E-----------------------------------------------------------------

E----3-3-3-2-------------------2----------------------------------
B--0---------5-2-2-2---2-2-2-3---5-2-3h5-3------------------------
G--------------------2--------------------------------------------
D-----------------------------------------------------------------
A-----------------------------------------------------------------
E-----------------------------------------------------------------

Stanza:
E-----------------------------------------------------------------
B--8-8-5-5/8-8\5---8-8-5-5/8-8-8-8-8/10-8-7-5-3-5-5/7-------------
G-----------------------------------------------------------------
D-----------------------------------------------------------------
A-----------------------------------------------------------------
E-----------------------------------------------------------------

E-----------------------------------------------------------------
B--8-8-5-5/8-8\5---8-8-5-5/8-8-8-8-8/10-8-7-5-3-5-5/7-------------
G-----------------------------------------------------------------
D-----------------------------------------------------------------
A-----------------------------------------------------------------
E-----------------------------------------------------------------

E-----------------------------------------------------------------
B--------------7-7-7-7\0--------------7-7-7-7\0-------------------
G--2-2-2-2h4-4------------2-2-2-2h4-4-----------------------------
D-----------------------------------------------------------------
A-----------------------------------------------------------------
E-----------------------------------------------------------------

E----3-3-3-2-------------------2----------------------------------
B--0---------5-2-2-2---2-2-2-3---5-2-3h5-3------------------------
G--------------------2--------------------------------------------
D-----------------------------------------------------------------
A-----------------------------------------------------------------
E-----------------------------------------------------------------

Post Reply

Who is online

Users browsing this forum: No registered users and 1 guest